生命河靈糧堂 – 成為神蹟的器皿 Interlude Guitar Solo Tabs

1. Notes

  • Standard tuning

2. Syntax

Due to the limitation of writing tabs in this platform, I use other representatives:

  • b – Bending
  • h – Hammer
  • Bold+Italic – Optional to play it

3. Tabs

Vamp (3:04):

Just a solo within the D major scale within 3 octaves.

E|-------------------------------------9--10--|
B|--------------------------------------------|
G|--7b9----7----6--7--6-------------4---------|
D|-----------------------7--7----5------------|
A|--------------------------------------------|
E|--------------------------------------------|
E|--10b12----10----9--10--9--------------------|
B|---------------------------10--10--------12--|
G|-------------------------------------12------|
D|---------------------------------------------|
A|---------------------------------------------|
E|---------------------------------------------|
E|------------------------------------------------------------------------|
B|--12--10----------------------------------10--10------------------------|
G|----------12--11--12-----------9h11----9----------------9--9------------|
D|------------------------9--12-----------------------11----------11--12--|
A|------------------------------------------------------------------------|
E|------------------------------------------------------------------------|
E|-------------------------------------------------10--10----12--12----|
B|-----------------------10--10------10--12--12------------------------|
G|--9--11----12--11--12------------------------------------------------|
D|-------------------------------12------------------------------------|
A|---------------------------------------------------------------------|
E|---------------------------------------------------------------------|

I hope this article has been helpful to you. Feel free to leave any comments below. You may also send me some tips if you like my work and want to see more of such content. Funds will mostly be used for my boba milk tea addiction. The link is here. 🙂

Leave a Reply

Please log in using one of these methods to post your comment:

WordPress.com Logo

You are commenting using your WordPress.com account. Log Out /  Change )

Twitter picture

You are commenting using your Twitter account. Log Out /  Change )

Facebook photo

You are commenting using your Facebook account. Log Out /  Change )

Connecting to %s

This site uses Akismet to reduce spam. Learn how your comment data is processed.