火把音樂 -【當我抬頭仰望 When I Look at the Sky】 Guitar Tabs

Notes

  • Standard tuning

Tabs

Interlude (3:10):

E|--15--15-15----------------------------------------------------14--14s15--|
B|-------------19--19s12--12--12--12-12--13--13--13--13--15--15-------------|
G|--------------------------------------------------------------------------|
D|--------------------------------------------------------------------------|
A|--------------------------------------------------------------------------|
E|--------------------------------------------------------------------------|
E|--15--15-15--15-----------------------------------------------------------|
B|-----------------19--19--19--19s12--12--12--12--12------------------------|
G|----------------------------------------------------14--14--12------------|
D|--------------------------------------------------------------------------|
A|--------------------------------------------------------------------------|
E|--------------------------------------------------------------------------|

I hope this article has been helpful to you. Feel free to leave any comments below. You may also send me some tips if you like my work and want to see more of such content. Funds will mostly be used for my boba milk tea addiction. The link is here. 🙂

Leave a Reply

Please log in using one of these methods to post your comment:

WordPress.com Logo

You are commenting using your WordPress.com account. Log Out /  Change )

Twitter picture

You are commenting using your Twitter account. Log Out /  Change )

Facebook photo

You are commenting using your Facebook account. Log Out /  Change )

Connecting to %s

This site uses Akismet to reduce spam. Learn how your comment data is processed.