我需要有你在我生命中 Guitar Tabs

Song

Tabs

  • Standard tuning
  • No capo

Solo after chorus before verse:

|--------------------------------------------------------------------------------|
|--------4s5---5-6-5-----------------------5-6-5-6-8-8s10-10---8-10-8-6-5-6-6s8--|
|--------------------7---5-4-5-----2-4-5-7---------------------------------------|
|--5-5-5-------------------------5-----------------------------------------------|
|--------------------------------------------------------------------------------|
|--------------------------------------------------------------------------------|
|-7-8-7-8s11s-8-----------------------------------------------------|
|-------------------8s10-10---8-10-8-6-5-6s8----------------5--5s6--|
|-----------------5----------------------------4-5-7--5---7---------|
|-------------------------------------------------------------------|
|-------------------------------------------------------------------|
|-------------------------------------------------------------------|
|----------------------------------------------|
|---5-6-5-6-8-8s10-6p5---------------5-6-6s8---|
|-7--------------------7-----2-4-5-7-----------|
|--------------------------5-------------------|
|----------------------------------------------|
|----------------------------------------------|

Legend

s – Slide
p – Pull-off

I hope these tabs have been helpful to you. Feel free to leave any comments below. You may also send me some tips if you like my work and want to see more of such content. Funds will mostly be used for my boba milk tea addiction. The link is here. 🙂

Leave a Reply

Please log in using one of these methods to post your comment:

WordPress.com Logo

You are commenting using your WordPress.com account. Log Out /  Change )

Twitter picture

You are commenting using your Twitter account. Log Out /  Change )

Facebook photo

You are commenting using your Facebook account. Log Out /  Change )

Connecting to %s

This site uses Akismet to reduce spam. Learn how your comment data is processed.