Hillsongs Worship《King of kings》Guitar Tabs

1. Note

  • Standard tuning

2. Tabs

2.1 Syntax

Arrow (up/down shows the direction) indicating arpeggio plucking:

^
|
|

2.2. Score

Intro/Interlude/Outro (Loop):

    D
E|-----------------0--0--2--3----2--------------|
B|-----3--3---------------------------3---------|
G|-----------2--2--------------------------2----|
D|--0-------------------------------------------|
A|----------------------------------------------|
E|----------------------------------------------|

Verse:

             D            G             A            D
E|-----0--|--2^--------3--3----3--2--|--0^--------2--2^-------0--|
B|--3-----|--3|--3--3-----3----------|--2|--3--3-----3|----3-----|
G|--------|--2|----------------------|--2|-----------2|----------|
D|--------|--0|----------------------|---------------0|----------|
A|--------|---------------2----------|--0|-----------------------|
E|--------|---------------3----------|---------------------------|
    D            G             A            D
E|--2^--------3--3----3--2--|--0^-----------------------|
B|--3|--3--3-----3----------|--2|--3--3--2--3^----------|
G|--2|----------------------|--2|-----------2|----------|
D|--0|----------------------|---------------0|----------|
A|---------------2----------|--0|-----------------------|
E|---------------3----------|---------------------------|

Chorus:

    D                        G                        Bm
E|--5^---------|--------------5^----3----|----3---------------------|
B|--7|----8----|----7---------3|---------|--------------11^----8----|
G|--7|---------|---------7----0|---------|--------------7 |---------|
D|--0|---------|--------------5|---------|--------------10|---------|
A|-------------|-------------------------|--------------------------|
E|-------------|-------------------------|--------------------------|
                A                        D                        G
E|-------------------------|--------------5^---------|--------------9-----10----|
B|----7---------7^----8----|----5---------3|----8----|----7---------------------|
G|---------7----7|---------|--------------0|---------|---------7----------------|
D|-------------------------|--------------5|---------|--------------------------|
A|--------------0|---------|-------------------------|--------------11----------|
E|-------------------------|-------------------------|--------------------------|
                Bm             G             A              D
E|----3---------2^----2----|----2--0-----2----0^---------|----------------------------|
B|--------------3|---------|----------3-------3|----3----|----3-----------------------|
G|--------------4|---------|------------------3|---------|----------------------------|
D|--------------4|---------|------------------3|---------|----0-----------------------|
A|--------------2|---------|------------------0|---------|----------------------------|
E|-------------------------|----3------------------------|----------------------------|

 

Leave a Reply

Please log in using one of these methods to post your comment:

WordPress.com Logo

You are commenting using your WordPress.com account. Log Out /  Change )

Twitter picture

You are commenting using your Twitter account. Log Out /  Change )

Facebook photo

You are commenting using your Facebook account. Log Out /  Change )

Connecting to %s

This site uses Akismet to reduce spam. Learn how your comment data is processed.