SOP 讚美之泉 【十字架 The Cross】Guitar Tabs

1. Notes

  • Standard tuning
  • Reverb (Optional)
  • Delay (Optional)

2. Tabs

2.1 Syntax

h – Hammer

l – Lift-off

2.2. Score

Intro/Interlude (x2):

    F                        F
E|-------------------------------------------------------|
B|-----------------1-------------------------------------|
G|-------2----0---------0h2-----2----2----3----0----3l2--|
D|--3----------------------------------------------------|
A|-------------------------------------------------------|
E|-------------------------------------------------------|
    F                        D
E|-------------------------------------------------------|
B|-----------------1-------------------------------------|
G|-------2----0---------0h2-----2----2----3----0----3l2--|
D|--3------------------------0---------------------------|
A|-------------------------------------------------------|
E|-------------------------------------------------------|

Outro:

    A                        A
E|-----------------0-------------------------------------|
B|-------2----0---------0h2-----2----2----3----0----3l2--|
G|-------------------------------------------------------|
D|-------------------------------------------------------|
A|--0------------------------0---------------------------|
E|-------------------------------------------------------|
    A                        A
E|-----------------0------------------------------------------|
B|-------2----0---------0h2-----2----2----3----0----3l2-------|
G|---------------------------------------------------------2--|
D|------------------------------------------------------------|
A|--0------------------------0--------------------------------|
E|------------------------------------------------------------|

 

Leave a Reply

Please log in using one of these methods to post your comment:

WordPress.com Logo

You are commenting using your WordPress.com account. Log Out /  Change )

Twitter picture

You are commenting using your Twitter account. Log Out /  Change )

Facebook photo

You are commenting using your Facebook account. Log Out /  Change )

Connecting to %s

This site uses Akismet to reduce spam. Learn how your comment data is processed.