Jasmine 张静汶 《多一点爱 Love More》Guitar Tabs

Note

  • Standard tuning
  • Capo 1st fret

 

Tab

Intro:

    C                  C/B                    C/E                 C/F
E|----------0--------0----------0--------0--|----------0--------0----------0-------0--|
B|-------1-----1--3----------1-----1--3-----|-------1-----1--3----------1----1--3-----|
G|------------------------------------------|-----------------------------------------|
D|------------------------------------------|--2----------2--------3---------3--------|
A|--3----------3--------2----------2--------|-----------------------------------------|
E|------------------------------------------|-----------------------------------------|
    C                  C/B                    C/E                 C/F
E|----------0--------0----------0--------0--|----------0--------0---------------------|
B|-------1-----1--3----------1-----1--3-----|-------1-----1--3------------------------|
G|------------------------------------------|-----------------------------------------|
D|------------------------------------------|--2----------2--------3------------------|
A|--3----------3--------2----------2--------|-----------------------------------------|
E|------------------------------------------|-----------------------------------------|

Leave a Reply

Please log in using one of these methods to post your comment:

WordPress.com Logo

You are commenting using your WordPress.com account. Log Out /  Change )

Twitter picture

You are commenting using your Twitter account. Log Out /  Change )

Facebook photo

You are commenting using your Facebook account. Log Out /  Change )

Connecting to %s

This site uses Akismet to reduce spam. Learn how your comment data is processed.